ISO-10303-21;
HEADER;
FILE_DESCRIPTION (( 'STEP AP203' ),
    '1' );
FILE_NAME ('Q-DWWP-R21-12.7-1064-SH-M.STEP',
    '2020-12-22T08:53:14',
    ( '' ),
    ( '' ),
    'SwSTEP 2.0',
    'SolidWorks 2020',
    '' );
FILE_SCHEMA (( 'CONFIG_CONTROL_DESIGN' ));
ENDSEC;

DATA;
#1 = CARTESIAN_POINT ( 'NONE',  ( -1.614212418857619014, 3.673940397442059868E-16, -3.000000000000000000 ) ) ;
#2 = AXIS2_PLACEMENT_3D ( 'NONE', #329, #282, #200 ) ;
#3 = CARTESIAN_POINT ( 'NONE',  ( 1.500000000000000444, 0.000000000000000000, 0.000000000000000000 ) ) ;
#4 = DIRECTION ( 'NONE',  ( 0.000000000000000000, 0.000000000000000000, 1.000000000000000000 ) ) ;
#5 = DATE_AND_TIME ( #64, #150 ) ;
#6 = PRODUCT_DEFINITION ( 'UNKNOWN', '', #302, #280 ) ;
#7 = CALENDAR_DATE ( 2020, 22, 12 ) ;
#8 = CALENDAR_DATE ( 2020, 22, 12 ) ;
#9 = ORIENTED_EDGE ( 'NONE', *, *, #265, .T. ) ;
#10 = VERTEX_POINT ( 'NONE', #55 ) ;
#11 = DIRECTION ( 'NONE',  ( 0.000000000000000000, 0.000000000000000000, -1.000000000000000000 ) ) ;
#12 = CARTESIAN_POINT ( 'NONE',  ( -1.614212418857619014, 6.123233995736766282E-16, -5.000000000000000000 ) ) ;
#13 = CARTESIAN_POINT ( 'NONE',  ( 1.500000000000000444, 3.673940397442059868E-16, -3.000000000000000000 ) ) ;
#14 = LINE ( 'NONE', #211, #35 ) ;
#15 = VERTEX_POINT ( 'NONE', #162 ) ;
#16 = DIRECTION ( 'NONE',  ( 1.000000000000000000, 0.000000000000000000, 0.000000000000000000 ) ) ;
#17 = FACE_OUTER_BOUND ( 'NONE', #298, .T. ) ;
#18 = APPROVAL_PERSON_ORGANIZATION ( #27, #48, #121 ) ;
#19 = FACE_BOUND ( 'NONE', #108, .T. ) ;
#20 = DIRECTION ( 'NONE',  ( -1.000000000000000000, -0.000000000000000000, -0.000000000000000000 ) ) ;
#21 = CC_DESIGN_PERSON_AND_ORGANIZATION_ASSIGNMENT ( #317, #122, ( #302 ) ) ;
#22 = CARTESIAN_POINT ( 'NONE',  ( -1.500000000000000000, 3.000000000000000000, 0.000000000000000000 ) ) ;
#23 =( NAMED_UNIT ( * ) PLANE_ANGLE_UNIT ( ) SI_UNIT ( $, .RADIAN. ) );
#24 = PERSON_AND_ORGANIZATION_ROLE ( 'classification_officer' ) ;
#25 = DATE_TIME_ROLE ( 'creation_date' ) ;
#26 = EDGE_CURVE ( 'NONE', #79, #144, #293, .T. ) ;
#27 = PERSON_AND_ORGANIZATION ( #274, #32 ) ;
#28 = ORIENTED_EDGE ( 'NONE', *, *, #240, .T. ) ;
#29 = APPLICATION_PROTOCOL_DEFINITION ( 'international standard', 'config_control_design', 1994, #278 ) ;
#30 = ADVANCED_FACE ( 'NONE', ( #164 ), #83, .F. ) ;
#31 = AXIS2_PLACEMENT_3D ( 'NONE', #160, #255, #135 ) ;
#32 = ORGANIZATION ( 'UNSPECIFIED', 'UNSPECIFIED', '' ) ;
#33 = PERSON_AND_ORGANIZATION ( #274, #32 ) ;
#34 = ADVANCED_FACE ( 'NONE', ( #19, #54 ), #157, .F. ) ;
#35 = VECTOR ( 'NONE', #208, 1000.000000000000000 ) ;
#36 = EDGE_CURVE ( 'NONE', #88, #140, #133, .T. ) ;
#37 = EDGE_LOOP ( 'NONE', ( #204, #242 ) ) ;
#38 = CARTESIAN_POINT ( 'NONE',  ( -1.500000000000000000, 0.000000000000000000, 0.000000000000000000 ) ) ;
#39 = ORIENTED_EDGE ( 'NONE', *, *, #315, .T. ) ;
#40 = DIRECTION ( 'NONE',  ( -1.000000000000000000, -0.000000000000000000, -0.000000000000000000 ) ) ;
#41 = ORIENTED_EDGE ( 'NONE', *, *, #45, .T. ) ;
#42 = CARTESIAN_POINT ( 'NONE',  ( -1.614212418857619014, 0.000000000000000000, 0.000000000000000000 ) ) ;
#43 = AXIS2_PLACEMENT_3D ( 'NONE', #163, #16, #206 ) ;
#44 = DIRECTION ( 'NONE',  ( 0.000000000000000000, 0.000000000000000000, 1.000000000000000000 ) ) ;
#45 = EDGE_CURVE ( 'NONE', #10, #88, #327, .T. ) ;
#46 = DIRECTION ( 'NONE',  ( -1.000000000000000000, -0.000000000000000000, -0.000000000000000000 ) ) ;
#47 = AXIS2_PLACEMENT_3D ( 'NONE', #22, #257, #251 ) ;
#48 = APPROVAL ( #221, 'UNSPECIFIED' ) ;
#49 = ORIENTED_EDGE ( 'NONE', *, *, #36, .T. ) ;
#50 = CARTESIAN_POINT ( 'NONE',  ( -0.5000000000000002220, 3.673940397442059868E-16, -3.000000000000000000 ) ) ;
#51 = ADVANCED_FACE ( 'NONE', ( #279 ), #203, .T. ) ;
#52 = DIRECTION ( 'NONE',  ( -1.000000000000000000, -0.000000000000000000, -0.000000000000000000 ) ) ;
#53 = PLANE ( 'NONE',  #195 ) ;
#54 = FACE_OUTER_BOUND ( 'NONE', #223, .T. ) ;
#55 = CARTESIAN_POINT ( 'NONE',  ( 1.500000000000000000, 6.123233995736766282E-16, -5.000000000000000000 ) ) ;
#56 = DIRECTION ( 'NONE',  ( -1.000000000000000000, 0.000000000000000000, -0.000000000000000000 ) ) ;
#57 = AXIS2_PLACEMENT_3D ( 'NONE', #38, #299, #70 ) ;
#58 = ADVANCED_FACE ( 'NONE', ( #94 ), #306, .F. ) ;
#59 = PERSON_AND_ORGANIZATION ( #274, #32 ) ;
#60 = AXIS2_PLACEMENT_3D ( 'NONE', #188, #62, #266 ) ;
#61 = DATE_AND_TIME ( #7, #106 ) ;
#62 = DIRECTION ( 'NONE',  ( 0.000000000000000000, 0.000000000000000000, 1.000000000000000000 ) ) ;
#63 = EDGE_CURVE ( 'NONE', #69, #325, #321, .T. ) ;
#64 = CALENDAR_DATE ( 2020, 22, 12 ) ;
#65 = VECTOR ( 'NONE', #283, 1000.000000000000000 ) ;
#66 = SECURITY_CLASSIFICATION_LEVEL ( 'unclassified' ) ;
#67 = EDGE_LOOP ( 'NONE', ( #213, #102, #194, #148 ) ) ;
#68 = CARTESIAN_POINT ( 'NONE',  ( -0.5000000000000002220, 0.000000000000000000, 0.000000000000000000 ) ) ;
#69 = VERTEX_POINT ( 'NONE', #224 ) ;
#70 = DIRECTION ( 'NONE',  ( 0.000000000000000000, 0.000000000000000000, 1.000000000000000000 ) ) ;
#71 = LOCAL_TIME ( 16, 53, 14.00000000000000000, #295 ) ;
#72 = EDGE_LOOP ( 'NONE', ( #127, #41, #49, #205 ) ) ;
#73 = DIRECTION ( 'NONE',  ( 0.000000000000000000, 0.000000000000000000, 1.000000000000000000 ) ) ;
#74 = EDGE_CURVE ( 'NONE', #319, #151, #207, .T. ) ;
#75 = DIRECTION ( 'NONE',  ( -1.000000000000000000, -0.000000000000000000, -0.000000000000000000 ) ) ;
#76 = PRODUCT_RELATED_PRODUCT_CATEGORY ( 'detail', '', ( #182 ) ) ;
#77 = LINE ( 'NONE', #149, #333 ) ;
#78 = CC_DESIGN_APPROVAL ( #139, ( #192 ) ) ;
#79 = VERTEX_POINT ( 'NONE', #175 ) ;
#80 = FACE_OUTER_BOUND ( 'NONE', #241, .T. ) ;
#81 = FACE_OUTER_BOUND ( 'NONE', #37, .T. ) ;
#82 = APPROVAL_PERSON_ORGANIZATION ( #320, #201, #146 ) ;
#83 = CYLINDRICAL_SURFACE ( 'NONE', #256, 3.000000000000000000 ) ;
#84 = MECHANICAL_CONTEXT ( 'NONE', #278, 'mechanical' ) ;
#85 = CIRCLE ( 'NONE', #254, 5.000000000000000000 ) ;
#86 = EDGE_CURVE ( 'NONE', #79, #69, #77, .T. ) ;
#87 = CALENDAR_DATE ( 2020, 22, 12 ) ;
#88 = VERTEX_POINT ( 'NONE', #152 ) ;
#89 = APPROVAL_ROLE ( '' ) ;
#90 = CC_DESIGN_DATE_AND_TIME_ASSIGNMENT ( #5, #25, ( #6 ) ) ;
#91 = COORDINATED_UNIVERSAL_TIME_OFFSET ( 8, 0, .AHEAD. ) ;
#92 = APPROVAL_DATE_TIME ( #189, #48 ) ;
#93 = ORIENTED_EDGE ( 'NONE', *, *, #248, .F. ) ;
#94 = FACE_OUTER_BOUND ( 'NONE', #291, .T. ) ;
#95 = EDGE_LOOP ( 'NONE', ( #118, #276 ) ) ;
#96 = CARTESIAN_POINT ( 'NONE',  ( -1.614212418857619014, 0.000000000000000000, 3.000000000000000000 ) ) ;
#97 = ORIENTED_EDGE ( 'NONE', *, *, #36, .F. ) ;
#98 = DIRECTION ( 'NONE',  ( -1.000000000000000000, -0.000000000000000000, -0.000000000000000000 ) ) ;
#99 = CLOSED_SHELL ( 'NONE', ( #126, #172, #30, #238, #247, #58, #34, #51, #218, #227 ) ) ;
#100 = CARTESIAN_POINT ( 'NONE',  ( -0.5000000000000002220, 0.000000000000000000, 0.000000000000000000 ) ) ;
#101 = CC_DESIGN_PERSON_AND_ORGANIZATION_ASSIGNMENT ( #59, #24, ( #192 ) ) ;
#102 = ORIENTED_EDGE ( 'NONE', *, *, #26, .F. ) ;
#103 = CARTESIAN_POINT ( 'NONE',  ( -1.500000000000000000, 6.123233995736766282E-16, -5.000000000000000000 ) ) ;
#104 = ORIENTED_EDGE ( 'NONE', *, *, #147, .T. ) ;
#105 = PLANE ( 'NONE',  #43 ) ;
#106 = LOCAL_TIME ( 16, 53, 14.00000000000000000, #143 ) ;
#107 = CC_DESIGN_DATE_AND_TIME_ASSIGNMENT ( #318, #220, ( #192 ) ) ;
#108 = EDGE_LOOP ( 'NONE', ( #132, #264 ) ) ;
#109 = CARTESIAN_POINT ( 'NONE',  ( 1.500000000000000000, 0.000000000000000000, 0.000000000000000000 ) ) ;
#110 = DIRECTION ( 'NONE',  ( -0.000000000000000000, 0.000000000000000000, 1.000000000000000000 ) ) ;
#111 = EDGE_CURVE ( 'NONE', #202, #15, #190, .T. ) ;
#112 = DIRECTION ( 'NONE',  ( 0.000000000000000000, 0.000000000000000000, 1.000000000000000000 ) ) ;
#113 = CIRCLE ( 'NONE', #142, 3.000000000000000000 ) ;
#114 = EDGE_CURVE ( 'NONE', #10, #130, #246, .T. ) ;
#115 = AXIS2_PLACEMENT_3D ( 'NONE', #235, #20, #161 ) ;
#116 = PERSON_AND_ORGANIZATION_ROLE ( 'creator' ) ;
#117 = AXIS2_PLACEMENT_3D ( 'NONE', #68, #171, #11 ) ;
#118 = ORIENTED_EDGE ( 'NONE', *, *, #26, .T. ) ;
#119 = PERSON_AND_ORGANIZATION_ROLE ( 'design_supplier' ) ;
#120 = MANIFOLD_SOLID_BREP ( 'Ðý×', #99 ) ;
#121 = APPROVAL_ROLE ( '' ) ;
#122 = PERSON_AND_ORGANIZATION_ROLE ( 'creator' ) ;
#123 = ORIENTED_EDGE ( 'NONE', *, *, #63, .F. ) ;
#124 = ORIENTED_EDGE ( 'NONE', *, *, #111, .T. ) ;
#125 = FACE_OUTER_BOUND ( 'NONE', #270, .T. ) ;
#126 = ADVANCED_FACE ( 'NONE', ( #243 ), #225, .T. ) ;
#127 = ORIENTED_EDGE ( 'NONE', *, *, #114, .F. ) ;
#128 = CARTESIAN_POINT ( 'NONE',  ( 0.5000000000000004441, 0.000000000000000000, 0.000000000000000000 ) ) ;
#129 = VECTOR ( 'NONE', #131, 1000.000000000000000 ) ;
#130 = VERTEX_POINT ( 'NONE', #103 ) ;
#131 = DIRECTION ( 'NONE',  ( -1.000000000000000000, -0.000000000000000000, -0.000000000000000000 ) ) ;
#132 = ORIENTED_EDGE ( 'NONE', *, *, #74, .F. ) ;
#133 = LINE ( 'NONE', #234, #301 ) ;
#134 = PLANE ( 'NONE',  #187 ) ;
#135 = DIRECTION ( 'NONE',  ( 0.000000000000000000, 0.000000000000000000, 1.000000000000000000 ) ) ;
#136 = DIRECTION ( 'NONE',  ( -0.000000000000000000, 0.000000000000000000, 1.000000000000000000 ) ) ;
#137 = DIRECTION ( 'NONE',  ( -1.000000000000000000, -0.000000000000000000, -0.000000000000000000 ) ) ;
#138 = DIRECTION ( 'NONE',  ( -1.000000000000000000, -0.000000000000000000, -0.000000000000000000 ) ) ;
#139 = APPROVAL ( #290, 'UNSPECIFIED' ) ;
#140 = VERTEX_POINT ( 'NONE', #229 ) ;
#141 = COORDINATED_UNIVERSAL_TIME_OFFSET ( 8, 0, .AHEAD. ) ;
#142 = AXIS2_PLACEMENT_3D ( 'NONE', #314, #231, #112 ) ;
#143 = COORDINATED_UNIVERSAL_TIME_OFFSET ( 8, 0, .AHEAD. ) ;
#144 = VERTEX_POINT ( 'NONE', #13 ) ;
#145 = DATE_AND_TIME ( #8, #71 ) ;
#146 = APPROVAL_ROLE ( '' ) ;
#147 = EDGE_CURVE ( 'NONE', #15, #319, #323, .T. ) ;
#148 = ORIENTED_EDGE ( 'NONE', *, *, #63, .T. ) ;
#149 = CARTESIAN_POINT ( 'NONE',  ( -1.614212418857619014, 0.000000000000000000, 3.000000000000000000 ) ) ;
#150 = LOCAL_TIME ( 16, 53, 14.00000000000000000, #170 ) ;
#151 = VERTEX_POINT ( 'NONE', #273 ) ;
#152 = CARTESIAN_POINT ( 'NONE',  ( 1.500000000000000000, 0.000000000000000000, 5.000000000000000000 ) ) ;
#153 = EDGE_CURVE ( 'NONE', #15, #202, #313, .T. ) ;
#154 = DIRECTION ( 'NONE',  ( 0.000000000000000000, 0.000000000000000000, 1.000000000000000000 ) ) ;
#155 = CIRCLE ( 'NONE', #57, 5.000000000000000000 ) ;
#156 = CARTESIAN_POINT ( 'NONE',  ( -1.614212418857619014, 0.000000000000000000, 0.000000000000000000 ) ) ;
#157 = PLANE ( 'NONE',  #47 ) ;
#158 = DIRECTION ( 'NONE',  ( 0.000000000000000000, 0.000000000000000000, 1.000000000000000000 ) ) ;
#159 = CC_DESIGN_PERSON_AND_ORGANIZATION_ASSIGNMENT ( #267, #263, ( #182 ) ) ;
#160 = CARTESIAN_POINT ( 'NONE',  ( 1.500000000000000000, 0.000000000000000000, 0.000000000000000000 ) ) ;
#161 = DIRECTION ( 'NONE',  ( 0.000000000000000000, 0.000000000000000000, 1.000000000000000000 ) ) ;
#162 = CARTESIAN_POINT ( 'NONE',  ( -0.5000000000000002220, 0.000000000000000000, 3.000000000000000000 ) ) ;
#163 = CARTESIAN_POINT ( 'NONE',  ( -0.5000000000000002220, 3.000000000000000000, 0.000000000000000000 ) ) ;
#164 = FACE_OUTER_BOUND ( 'NONE', #328, .T. ) ;
#165 = ORIENTED_EDGE ( 'NONE', *, *, #153, .T. ) ;
#166 =( NAMED_UNIT ( * ) SI_UNIT ( $, .STERADIAN. ) SOLID_ANGLE_UNIT ( ) );
#167 = AXIS2_PLACEMENT_3D ( 'NONE', #180, #312, #183 ) ;
#168 = AXIS2_PLACEMENT_3D ( 'NONE', #330, #137, #310 ) ;
#169 = APPROVAL_DATE_TIME ( #61, #139 ) ;
#170 = COORDINATED_UNIVERSAL_TIME_OFFSET ( 8, 0, .AHEAD. ) ;
#171 = DIRECTION ( 'NONE',  ( 1.000000000000000000, 0.000000000000000000, 0.000000000000000000 ) ) ;
#172 = ADVANCED_FACE ( 'NONE', ( #125 ), #245, .F. ) ;
#173 = ORIENTED_EDGE ( 'NONE', *, *, #147, .F. ) ;
#174 = LOCAL_TIME ( 16, 53, 14.00000000000000000, #91 ) ;
#175 = CARTESIAN_POINT ( 'NONE',  ( 1.500000000000000444, 0.000000000000000000, 3.000000000000000000 ) ) ;
#176 = ORIENTED_EDGE ( 'NONE', *, *, #74, .T. ) ;
#177 = CARTESIAN_POINT ( 'NONE',  ( -1.614212418857619014, 0.000000000000000000, 0.000000000000000000 ) ) ;
#178 = AXIS2_PLACEMENT_3D ( 'NONE', #156, #226, #249 ) ;
#179 =( GEOMETRIC_REPRESENTATION_CONTEXT ( 3 ) GLOBAL_UNCERTAINTY_ASSIGNED_CONTEXT ( ( #275 ) ) GLOBAL_UNIT_ASSIGNED_CONTEXT ( ( #288, #23, #166 ) ) REPRESENTATION_CONTEXT ( 'NONE', 'WORKASPACE' ) );
#180 = CARTESIAN_POINT ( 'NONE',  ( -1.500000000000000000, 0.000000000000000000, 0.000000000000000000 ) ) ;
#181 = ORIENTED_EDGE ( 'NONE', *, *, #114, .T. ) ;
#182 = PRODUCT ( 'Q-DWWP-R21-12.7-1064-SH-M', 'Q-DWWP-R21-12.7-1064-SH-M', '', ( #84 ) ) ;
#183 = DIRECTION ( 'NONE',  ( 0.000000000000000000, 0.000000000000000000, 1.000000000000000000 ) ) ;
#184 = DIRECTION ( 'NONE',  ( -1.000000000000000000, -0.000000000000000000, -0.000000000000000000 ) ) ;
#185 = CARTESIAN_POINT ( 'NONE',  ( -1.614212418857619014, 0.000000000000000000, 0.000000000000000000 ) ) ;
#186 = CARTESIAN_POINT ( 'NONE',  ( 0.5000000000000002220, 3.000000000000000000, 0.000000000000000000 ) ) ;
#187 = AXIS2_PLACEMENT_3D ( 'NONE', #186, #56, #136 ) ;
#188 = CARTESIAN_POINT ( 'NONE',  ( 0.000000000000000000, 0.000000000000000000, 0.000000000000000000 ) ) ;
#189 = DATE_AND_TIME ( #87, #174 ) ;
#190 = CIRCLE ( 'NONE', #232, 3.000000000000000000 ) ;
#191 = ORIENTED_EDGE ( 'NONE', *, *, #196, .T. ) ;
#192 = SECURITY_CLASSIFICATION ( '', '', #66 ) ;
#193 = SHAPE_DEFINITION_REPRESENTATION ( #309, #209 ) ;
#194 = ORIENTED_EDGE ( 'NONE', *, *, #86, .T. ) ;
#195 = AXIS2_PLACEMENT_3D ( 'NONE', #289, #285, #110 ) ;
#196 = EDGE_CURVE ( 'NONE', #130, #140, #155, .T. ) ;
#197 = PERSON_AND_ORGANIZATION ( #274, #32 ) ;
#198 = ORIENTED_EDGE ( 'NONE', *, *, #250, .T. ) ;
#199 = DIRECTION ( 'NONE',  ( -1.000000000000000000, -0.000000000000000000, -0.000000000000000000 ) ) ;
#200 = DIRECTION ( 'NONE',  ( 0.000000000000000000, 0.000000000000000000, 1.000000000000000000 ) ) ;
#201 = APPROVAL ( #217, 'UNSPECIFIED' ) ;
#202 = VERTEX_POINT ( 'NONE', #50 ) ;
#203 = CYLINDRICAL_SURFACE ( 'NONE', #268, 5.000000000000000000 ) ;
#204 = ORIENTED_EDGE ( 'NONE', *, *, #153, .F. ) ;
#205 = ORIENTED_EDGE ( 'NONE', *, *, #196, .F. ) ;
#206 = DIRECTION ( 'NONE',  ( 0.000000000000000000, 0.000000000000000000, -1.000000000000000000 ) ) ;
#207 = CIRCLE ( 'NONE', #334, 3.000000000000000000 ) ;
#208 = DIRECTION ( 'NONE',  ( -1.000000000000000000, -0.000000000000000000, -0.000000000000000000 ) ) ;
#209 = ADVANCED_BREP_SHAPE_REPRESENTATION ( 'Q-DWWP-R21-12.7-1064-SH-M', ( #120, #60 ), #179 ) ;
#210 = ORIENTED_EDGE ( 'NONE', *, *, #248, .T. ) ;
#211 = CARTESIAN_POINT ( 'NONE',  ( -1.614212418857619014, 3.673940397442059868E-16, -3.000000000000000000 ) ) ;
#212 = CC_DESIGN_PERSON_AND_ORGANIZATION_ASSIGNMENT ( #33, #116, ( #6 ) ) ;
#213 = ORIENTED_EDGE ( 'NONE', *, *, #262, .F. ) ;
#214 = LINE ( 'NONE', #1, #65 ) ;
#215 = DIRECTION ( 'NONE',  ( 0.000000000000000000, 0.000000000000000000, 1.000000000000000000 ) ) ;
#216 = CARTESIAN_POINT ( 'NONE',  ( 0.5000000000000004441, 3.673940397442059868E-16, -3.000000000000000000 ) ) ;
#217 = APPROVAL_STATUS ( 'not_yet_approved' ) ;
#218 = ADVANCED_FACE ( 'NONE', ( #80, #332 ), #53, .F. ) ;
#219 = CIRCLE ( 'NONE', #115, 3.000000000000000000 ) ;
#220 = DATE_TIME_ROLE ( 'classification_date' ) ;
#221 = APPROVAL_STATUS ( 'not_yet_approved' ) ;
#222 = APPLICATION_PROTOCOL_DEFINITION ( 'international standard', 'config_control_design', 1994, #311 ) ;
#223 = EDGE_LOOP ( 'NONE', ( #198, #191 ) ) ;
#224 = CARTESIAN_POINT ( 'NONE',  ( 0.5000000000000004441, 0.000000000000000000, 3.000000000000000000 ) ) ;
#225 = CYLINDRICAL_SURFACE ( 'NONE', #297, 5.000000000000000000 ) ;
#226 = DIRECTION ( 'NONE',  ( -1.000000000000000000, -0.000000000000000000, -0.000000000000000000 ) ) ;
#227 = ADVANCED_FACE ( 'NONE', ( #81 ), #105, .F. ) ;
#228 = ORIENTED_EDGE ( 'NONE', *, *, #86, .F. ) ;
#229 = CARTESIAN_POINT ( 'NONE',  ( -1.500000000000000000, 0.000000000000000000, 5.000000000000000000 ) ) ;
#230 = ORIENTED_EDGE ( 'NONE', *, *, #315, .F. ) ;
#231 = DIRECTION ( 'NONE',  ( -1.000000000000000000, -0.000000000000000000, -0.000000000000000000 ) ) ;
#232 = AXIS2_PLACEMENT_3D ( 'NONE', #100, #281, #277 ) ;
#233 = APPROVAL_PERSON_ORGANIZATION ( #237, #139, #89 ) ;
#234 = CARTESIAN_POINT ( 'NONE',  ( -1.614212418857619014, 0.000000000000000000, 5.000000000000000000 ) ) ;
#235 = CARTESIAN_POINT ( 'NONE',  ( -1.500000000000000000, 0.000000000000000000, 0.000000000000000000 ) ) ;
#236 = CALENDAR_DATE ( 2020, 22, 12 ) ;
#237 = PERSON_AND_ORGANIZATION ( #274, #32 ) ;
#238 = ADVANCED_FACE ( 'NONE', ( #17 ), #134, .F. ) ;
#239 = ORIENTED_EDGE ( 'NONE', *, *, #45, .F. ) ;
#240 = EDGE_CURVE ( 'NONE', #202, #151, #14, .T. ) ;
#241 = EDGE_LOOP ( 'NONE', ( #93, #239 ) ) ;
#242 = ORIENTED_EDGE ( 'NONE', *, *, #111, .F. ) ;
#243 = FACE_OUTER_BOUND ( 'NONE', #300, .T. ) ;
#244 = CC_DESIGN_APPROVAL ( #48, ( #6 ) ) ;
#245 = CYLINDRICAL_SURFACE ( 'NONE', #2, 3.000000000000000000 ) ;
#246 = LINE ( 'NONE', #12, #253 ) ;
#247 = ADVANCED_FACE ( 'NONE', ( #335 ), #316, .F. ) ;
#248 = EDGE_CURVE ( 'NONE', #88, #10, #85, .T. ) ;
#249 = DIRECTION ( 'NONE',  ( 0.000000000000000000, 0.000000000000000000, 1.000000000000000000 ) ) ;
#250 = EDGE_CURVE ( 'NONE', #140, #130, #284, .T. ) ;
#251 = DIRECTION ( 'NONE',  ( 0.000000000000000000, 0.000000000000000000, -1.000000000000000000 ) ) ;
#252 = DIRECTION ( 'NONE',  ( -1.000000000000000000, -0.000000000000000000, -0.000000000000000000 ) ) ;
#253 = VECTOR ( 'NONE', #40, 1000.000000000000000 ) ;
#254 = AXIS2_PLACEMENT_3D ( 'NONE', #109, #252, #4 ) ;
#255 = DIRECTION ( 'NONE',  ( -1.000000000000000000, -0.000000000000000000, -0.000000000000000000 ) ) ;
#256 = AXIS2_PLACEMENT_3D ( 'NONE', #185, #331, #259 ) ;
#257 = DIRECTION ( 'NONE',  ( 1.000000000000000000, 0.000000000000000000, 0.000000000000000000 ) ) ;
#258 = CARTESIAN_POINT ( 'NONE',  ( -1.614212418857619014, 0.000000000000000000, 0.000000000000000000 ) ) ;
#259 = DIRECTION ( 'NONE',  ( 0.000000000000000000, 0.000000000000000000, 1.000000000000000000 ) ) ;
#260 = CC_DESIGN_SECURITY_CLASSIFICATION ( #192, ( #302 ) ) ;
#261 = ORIENTED_EDGE ( 'NONE', *, *, #250, .F. ) ;
#262 = EDGE_CURVE ( 'NONE', #144, #325, #214, .T. ) ;
#263 = PERSON_AND_ORGANIZATION_ROLE ( 'design_owner' ) ;
#264 = ORIENTED_EDGE ( 'NONE', *, *, #265, .F. ) ;
#265 = EDGE_CURVE ( 'NONE', #151, #319, #219, .T. ) ;
#266 = DIRECTION ( 'NONE',  ( 1.000000000000000000, 0.000000000000000000, 0.000000000000000000 ) ) ;
#267 = PERSON_AND_ORGANIZATION ( #274, #32 ) ;
#268 = AXIS2_PLACEMENT_3D ( 'NONE', #42, #98, #73 ) ;
#269 = LOCAL_TIME ( 16, 53, 14.00000000000000000, #141 ) ;
#270 = EDGE_LOOP ( 'NONE', ( #165, #28, #9, #173 ) ) ;
#271 = AXIS2_PLACEMENT_3D ( 'NONE', #258, #138, #158 ) ;
#272 = ORIENTED_EDGE ( 'NONE', *, *, #240, .F. ) ;
#273 = CARTESIAN_POINT ( 'NONE',  ( -1.500000000000000000, 3.673940397442059868E-16, -3.000000000000000000 ) ) ;
#274 = PERSON ( 'UNSPECIFIED', 'UNSPECIFIED', 'UNSPECIFIED', ('UNSPECIFIED'), ('UNSPECIFIED'), ('UNSPECIFIED') ) ;
#275 = UNCERTAINTY_MEASURE_WITH_UNIT (LENGTH_MEASURE( 1.000000000000000082E-05 ), #288, 'distance_accuracy_value', 'NONE');
#276 = ORIENTED_EDGE ( 'NONE', *, *, #292, .T. ) ;
#277 = DIRECTION ( 'NONE',  ( 0.000000000000000000, 0.000000000000000000, -1.000000000000000000 ) ) ;
#278 = APPLICATION_CONTEXT ( 'configuration controlled 3d designs of mechanical parts and assemblies' ) ;
#279 = FACE_OUTER_BOUND ( 'NONE', #72, .T. ) ;
#280 = DESIGN_CONTEXT ( 'detailed design', #311, 'design' ) ;
#281 = DIRECTION ( 'NONE',  ( 1.000000000000000000, 0.000000000000000000, 0.000000000000000000 ) ) ;
#282 = DIRECTION ( 'NONE',  ( -1.000000000000000000, -0.000000000000000000, -0.000000000000000000 ) ) ;
#283 = DIRECTION ( 'NONE',  ( -1.000000000000000000, -0.000000000000000000, -0.000000000000000000 ) ) ;
#284 = CIRCLE ( 'NONE', #167, 5.000000000000000000 ) ;
#285 = DIRECTION ( 'NONE',  ( -1.000000000000000000, 0.000000000000000000, -0.000000000000000000 ) ) ;
#286 = CIRCLE ( 'NONE', #168, 3.000000000000000000 ) ;
#287 = AXIS2_PLACEMENT_3D ( 'NONE', #3, #184, #215 ) ;
#288 =( LENGTH_UNIT ( ) NAMED_UNIT ( * ) SI_UNIT ( .MILLI., .METRE. ) );
#289 = CARTESIAN_POINT ( 'NONE',  ( 1.500000000000000222, 5.000000000000000000, 0.000000000000000000 ) ) ;
#290 = APPROVAL_STATUS ( 'not_yet_approved' ) ;
#291 = EDGE_LOOP ( 'NONE', ( #272, #124, #104, #176 ) ) ;
#292 = EDGE_CURVE ( 'NONE', #144, #79, #286, .T. ) ;
#293 = CIRCLE ( 'NONE', #287, 3.000000000000000000 ) ;
#294 = APPROVAL_DATE_TIME ( #145, #201 ) ;
#295 = COORDINATED_UNIVERSAL_TIME_OFFSET ( 8, 0, .AHEAD. ) ;
#296 = DIRECTION ( 'NONE',  ( -1.000000000000000000, -0.000000000000000000, -0.000000000000000000 ) ) ;
#297 = AXIS2_PLACEMENT_3D ( 'NONE', #177, #296, #44 ) ;
#298 = EDGE_LOOP ( 'NONE', ( #123, #230 ) ) ;
#299 = DIRECTION ( 'NONE',  ( -1.000000000000000000, -0.000000000000000000, -0.000000000000000000 ) ) ;
#300 = EDGE_LOOP ( 'NONE', ( #210, #181, #261, #97 ) ) ;
#301 = VECTOR ( 'NONE', #52, 1000.000000000000000 ) ;
#302 = PRODUCT_DEFINITION_FORMATION_WITH_SPECIFIED_SOURCE ( 'ANY', '', #182, .NOT_KNOWN. ) ;
#303 = CC_DESIGN_PERSON_AND_ORGANIZATION_ASSIGNMENT ( #197, #119, ( #302 ) ) ;
#304 = CARTESIAN_POINT ( 'NONE',  ( -1.500000000000000000, 0.000000000000000000, 0.000000000000000000 ) ) ;
#305 = ORIENTED_EDGE ( 'NONE', *, *, #292, .F. ) ;
#306 = CYLINDRICAL_SURFACE ( 'NONE', #178, 3.000000000000000000 ) ;
#307 = CARTESIAN_POINT ( 'NONE',  ( -1.500000000000000000, 0.000000000000000000, 3.000000000000000000 ) ) ;
#308 = AXIS2_PLACEMENT_3D ( 'NONE', #128, #199, #154 ) ;
#309 = PRODUCT_DEFINITION_SHAPE ( 'NONE', 'NONE',  #6 ) ;
#310 = DIRECTION ( 'NONE',  ( 0.000000000000000000, 0.000000000000000000, 1.000000000000000000 ) ) ;
#311 = APPLICATION_CONTEXT ( 'configuration controlled 3d designs of mechanical parts and assemblies' ) ;
#312 = DIRECTION ( 'NONE',  ( -1.000000000000000000, -0.000000000000000000, -0.000000000000000000 ) ) ;
#313 = CIRCLE ( 'NONE', #117, 3.000000000000000000 ) ;
#314 = CARTESIAN_POINT ( 'NONE',  ( 0.5000000000000004441, 0.000000000000000000, 0.000000000000000000 ) ) ;
#315 = EDGE_CURVE ( 'NONE', #325, #69, #113, .T. ) ;
#316 = CYLINDRICAL_SURFACE ( 'NONE', #271, 3.000000000000000000 ) ;
#317 = PERSON_AND_ORGANIZATION ( #274, #32 ) ;
#318 = DATE_AND_TIME ( #236, #269 ) ;
#319 = VERTEX_POINT ( 'NONE', #307 ) ;
#320 = PERSON_AND_ORGANIZATION ( #274, #32 ) ;
#321 = CIRCLE ( 'NONE', #308, 3.000000000000000000 ) ;
#322 = ORIENTED_EDGE ( 'NONE', *, *, #262, .T. ) ;
#323 = LINE ( 'NONE', #96, #129 ) ;
#324 = CC_DESIGN_APPROVAL ( #201, ( #302 ) ) ;
#325 = VERTEX_POINT ( 'NONE', #216 ) ;
#326 = DIRECTION ( 'NONE',  ( 0.000000000000000000, 0.000000000000000000, 1.000000000000000000 ) ) ;
#327 = CIRCLE ( 'NONE', #31, 5.000000000000000000 ) ;
#328 = EDGE_LOOP ( 'NONE', ( #305, #322, #39, #228 ) ) ;
#329 = CARTESIAN_POINT ( 'NONE',  ( -1.614212418857619014, 0.000000000000000000, 0.000000000000000000 ) ) ;
#330 = CARTESIAN_POINT ( 'NONE',  ( 1.500000000000000444, 0.000000000000000000, 0.000000000000000000 ) ) ;
#331 = DIRECTION ( 'NONE',  ( -1.000000000000000000, -0.000000000000000000, -0.000000000000000000 ) ) ;
#332 = FACE_BOUND ( 'NONE', #95, .T. ) ;
#333 = VECTOR ( 'NONE', #46, 1000.000000000000000 ) ;
#334 = AXIS2_PLACEMENT_3D ( 'NONE', #304, #75, #326 ) ;
#335 = FACE_OUTER_BOUND ( 'NONE', #67, .T. ) ;
ENDSEC;
END-ISO-10303-21;
